Aide concernant la construction d'une tab? (Joe Perry)

Auteur Message
-Dapper
Special Top utilisateur


Inscrit le: 24 Sep 16
Localisation: Pierrefitte-Sur-Seine

Bonsoir à tous chers amis à l'ouïe fine!

Je cherche un peu en vain une tab correspondant au riff d'intro de la musique Eve Of Destruction du dernier album de Joe Perry.

J'adore son style un peu bluesy et elle ne me semblait pas si compliquée que ça à l'oreille...
Mais je bute sur les deux dernières notes. Ce qui me frustre assez finalement...

Pour piste de départ... Voilà ce que j'ai plus ou moins réussi à obtenir avec mon oreille de débutant:

e --------------------------------
B --------------------------------
G --------------------------------
D ------3-0----------------------
A --------------3-0-3s5-3-------
E ---0-------0-------------3b3-0
_________________________
s: Slide
b: Bend
_________________________

Peut-être une question d'accordage également? J'ai essayé la même tab en Mi Bémol et rien ne change, toujours ce couac sur les deux dernières... Help?

_________________
"Well, Like a Bad Penny You! Have Turned Up Again..."
- Rory Gallagher, 1978
Haut
Alerter un moderateur
ibane
Custom Top utilisateur

Inscrit le: 08 Jan 04
Localisation: -

D'après mes oreilles, le mi grave est accordé en ré, ce qui donnerait :

e ------------------------------------------------------------------
B ------------------------------------------------------------------
G ------------------------------------------------------------------
D -------3--0------------------------------------------------------
A --------------0--3-S-5--0---------------------------------------
D ----0------------------------3--3--0----------------------------

Sur la corde ré entre le 3 et le zéro il y a un pull off, et sur la corde ré grave la case 3 est légèrement bendée

Sinon tu avais déchiffré à 99 0/0.
Haut
Alerter un moderateur