Mathieu chedid "en tete a tete"

  • Publié dans guitare électrique
Auteur Message
moalex
Inscrit le: 05 Jan 08
Localisation: Thomery (77, France)

bonjours,qui aurais les accords du refrain de la chansons "en tete a tete"??? quand il fait en tete a tete (dring) avec moi meme (dring) qui aurait les accords correspondants au drings :p svp
Haut
Alerter un moderateur
dani26
Inscrit le: 13 Nov 07
Localisation: France

Je suis pas fan mais j'ai trouvé ceci sur le net :

Intro

E||------------------------|------------------------|------------------------|
B||--3-------3--3-------3--|--3-------3--3-------3--|--3----3--3--3----3--3--|
G||--4----4-----4----4-----|--4----4-----4----4-----|--0----0--0--0----0--0--|
D||--5----------4----------|--2----------0----------|--x----x--x--x----x--x--|
A||------------------------|------------------------|--3----3--3--2----2--2--|
E||------------------------|------------------------|------------------------|
> > < > > < > > < > > < > > < > > <


------------------------||-------------------------|------------------------|
--3----3--3--3----3--3--||---3-------3--3-------3--|--3-------3--3-------3--|
--0----0--0--2----2--2--||*--4----4-----4----4-----|--4----4-----4----4-----|
--x----x--x--0----0--0--||*--5----------4----------|--2----------0----------|
--0----0--0--x----x--x--||-------------------------|------------------------|
-------------2----2--2--||-------------------------|------------------------|
> > < > > < > etc


--------------------------------------|-------------------||
--3----3----3--3--3--3----------------|-------------------||
--0----0----0--0--0--0----------------|------------------*||
--x----x----x--x--x--0----------------|------------------*||
--3----3----3--2--0--x----------------|-------------------||
---------------------3----------------|-------------------||
Haut
Alerter un moderateur
moalex
Inscrit le: 05 Jan 08
Localisation: Thomery (77, France)

en faite je connais toute la chansons sauf c'est 3ou4 petit accords mais qui rendent quand meme la chansons encore plus belle.
Haut
Alerter un moderateur
Traps
Custom Ultra utilisateur


Inscrit le: 29 Apr 04
Localisation: France

Tu es dans la mauvaise section

Voici un site qui possède plein de tabs

http://www.911tabs.com/
Haut
Alerter un moderateur