[Solo] I Love Rock'N Roll (Joan Jett)

Auteur Message
lepcspeed
Special Top utilisateur

Inscrit le: 09 Oct 04
Localisation: Coutances (50, France)

Salut à vous ! me voici maintenant parmis vous sur ce forum que 'jadore déjà

Je cherche la tablature du solo de I Love Rock'N Roll (de Joan Jett).

Ne rigolez pas, je débute en gratte lol

Si vous l'avez en format Guitare Pro ça seré superrr sinon, c'ets pas grave, ça m'interesse quand même

@+
Haut
Alerter un moderateur
Alex5
Custom Top utilisateur

Inscrit le: 31 May 04
Localisation: Nantes (44, France)

solo, j'ai la tablature GP4 mais y'a pas de solo dedans. Y'en a un dans la chanson ?
Haut
Alerter un moderateur
lepcspeed
Special Top utilisateur

Inscrit le: 09 Oct 04
Localisation: Coutances (50, France)

Oui oui il y en à un. J'ai aussi des tablatures GP4, mais sans le solo...
Haut
Alerter un moderateur
lepcspeed
Special Top utilisateur

Inscrit le: 09 Oct 04
Localisation: Coutances (50, France)

Toujours rien ?
Haut
Alerter un moderateur
marchkofeeling
Inscrit le: 16 Jun 08
Localisation: Ath (78, Belgique)

Dance with me. Solo (over Patt.2)
AH b r 1/2 dive w/bar b b
e|-------------------------------------------------------12-------------------|
b|------------------------------------------------------------------12--12--12|
g|----------------------7------------------9--11--11-13-----11-13-------11---9|
D|-------------------x--6-------------/11-------------------------------------|
A|----------------------------------------------------------------------------|
E|-0--x--x-2-3-2--0-----------------------------------------------------------|


I said,"Can I take you home,where we can be alone?"
~~~~~~~~~ s s s s dive
e|----------------------------------------------------------------------------|
b|12--------------12---------------------------------------------------------2|
g|11------------9-----9-9-98-8--86-6-6-------------------------------------2|
D|-----9-9-9-11---------------------------9-9-9-9-97-7-7---6-6-6-6-64-2----2|
A|------------------------------------------------------------------------4--0|
E|----------------------------------------------------------------------------|

je ne sais si c'est correct c'est tout ce que j'ai trouvé

_________________
Ayez un peu de respect, on chie tous par le même trou!
Haut
Alerter un moderateur
outmachin
Custom Cool utilisateur

Inscrit le: 20 Mar 06
Localisation: Bruxelles (Belgique)

Essaye d'improviser, tu verras ça sera bénéfique

_________________
"When the power of love overcomes the love of power the world will know peace." Jimi Hendrix
Haut
Alerter un moderateur